Текст песни кожну ніч тобі співала її - в навушниках.віііідпустииииииииии

Просмотров: 7
0 чел. считают текст песни верным
0 чел. считают текст песни неверным
На этой странице находится текст песни кожну ніч тобі співала її - в навушниках.віііідпустииииииииии, а также перевод песни и видео или клип.
Intro-програш: (швидким темпом перебором за табою)
|Am |Em |C |G |C
e|-------0------------------3---------3------------0------|
B|-----1---------0--------1---------0---0--------1--------|
G|---2---------0---0----0---------0-------0----0----------|
D|--------------------------------------------------------|
A|-0--------2--------3-----------------------3------------|
E|-----------------------------3--------------------------| (4 рази)

Я вважав би,шо ти-білий день без дощу
Але сльози на твому обличчі,
І сказав би тобі:"Не моя, не моя..",
Тільки ти не впускаєш мене.
Я вважав би,шо ти тиха ніч без зірок,
Але ж сяють твої ясні очі
І сказав би тобі:"Ти лиш сон, тільки сон",
Але ж ти не впускаєш мене.

приспів:
Відпусти,я благаю відпусти,
бо неможу далі йти, я
Відпусти,я благаю,відпусти,
Я нехочу більше йти.

Intro-програш

І вважав би,шо ти-пелюсток,на весні,
Але ж ти не зів'янеш ніколи.
І сказав би тобі:"Ти моя,не моя"
Ла-ла-ла-лай,Ла-ла-ла-лай ла-лай
приспів:

Відпусти,я благаю відпусти,
бо неможу далі йти, я
Відпусти,я благаю,відпусти,
Я нехочу більше йти.
Intro- progrash ( Shvidky bust rate for taboyu )
  | Am | Em | C | G | C
e | ------- 0 ------------------ 3 --------- 3 ----------- -0 ------ |
B | ----- 0 -------- 1 --------- 1 --------- 0 --- 0 -------- 1 -------- |
G | --- 2 --------- 0 --- 0 ---- 0 --------- 0 ------- 0 ---- 0-- -------- |
D | ------------------------------------------------ -------- |
A | -0 -------- -------- 3 2 3 ---- ----------------------- -------- |
E | ----------------------------- 3 ------------------ -------- | ( 4 Razi )

I vvazhav bi ti- sho bіly day without doschu
Ale slozi on oblichchі Twomey ,
The I said the BBC Tobi : & quot; Not mine, not mine .. & quot ;,
Tіlki ti mene not vpuskaєsh .
I vvazhav bi ti sho quiet nich without zіrok ,
Ale w syayut tvoї yasnі ochі
The I said the BBC Tobi : & quot; Tee leash dream tіlki sleep & quot ;,
Ale w ti mene not vpuskaєsh .

prispіv :
Vіdpusti I Blagaj vіdpusti ,
Bo nemozhem Dali yti I
Vіdpusti I Blagaj , vіdpusti ,
I nehochu bіlshe yti .

Intro- progrash

The I vvazhav bi ti- sho pelyustok on vesnі ,
Ale w ti not zіv'yanesh nіkoli .
The I said the BBC Tobi : & quot; My Tee , not mine & quot;
La -la-la -lai la -la-la - la - lai lai
prispіv :

Vіdpusti I Blagaj vіdpusti ,
Bo nemozhem Dali yti I
Vіdpusti I Blagaj , vіdpusti ,
I nehochu bіlshe yti .
Опрос: Верный ли текст песни?
Да Нет